  0
SECTION
  2
HEADER
  9
$ACADVER
  1
AC1015
  9
$ACADMAINTVER
 70
     6
  9
$DWGCODEPAGE
  3
ANSI_1254
  9
$INSBASE
 10
0.0
 20
0.0
 30
0.0
  9
$EXTMIN
 10
0.0
 20
0.0
 30
0.0
  9
$EXTMAX
 10
279.4
 20
215.9
 30
0.0
  9
$LIMMIN
 10
0.0
 20
0.0
  9
$LIMMAX
 10
279.4
 20
215.9
  9
$ORTHOMODE
 70
     0
  9
$REGENMODE
 70
     1
  9
$FILLMODE
 70
     1
  9
$QTEXTMODE
 70
     0
  9
$MIRRTEXT
 70
     1
  9
$LTSCALE
 40
1.0
  9
$ATTMODE
 70
     1
  9
$TEXTSIZE
 40
3.5
  9
$TRACEWID
 40
1.0
  9
$TEXTSTYLE
  7
Standard
  9
$CLAYER
  8
0
  9
$CELTYPE
  6
ByLayer
  9
$CECOLOR
 62
   256
  9
$CELTSCALE
 40
1.0
  9
$DISPSILH
 70
     0
  9
$DIMSCALE
 40
1.0
  9
$DIMASZ
 40
3.5
  9
$DIMEXO
 40
1.0
  9
$DIMDLI
 40
3.75
  9
$DIMRND
 40
0.0
  9
$DIMDLE
 40
0.0
  9
$DIMEXE
 40
1.0
  9
$DIMTP
 40
0.0
  9
$DIMTM
 40
0.0
  9
$DIMTXT
 40
3.5
  9
$DIMCEN
 40
2.5
  9
$DIMTSZ
 40
0.0
  9
$DIMTOL
 70
     0
  9
$DIMLIM
 70
     0
  9
$DIMTIH
 70
     1
  9
$DIMTOH
 70
     1
  9
$DIMSE1
 70
     0
  9
$DIMSE2
 70
     0
  9
$DIMTAD
 70
     1
  9
$DIMZIN
 70
     0
  9
$DIMBLK
  1

  9
$DIMASO
 70
     1
  9
$DIMSHO
 70
     1
  9
$DIMPOST
  1

  9
$DIMAPOST
  1

  9
$DIMALT
 70
     0
  9
$DIMALTD
 70
     3
  9
$DIMALTF
 40
0.0393700787
  9
$DIMLFAC
 40
1.0
  9
$DIMTOFL
 70
     1
  9
$DIMTVP
 40
0.0
  9
$DIMTIX
 70
     0
  9
$DIMSOXD
 70
     0
  9
$DIMSAH
 70
     0
  9
$DIMBLK1
  1

  9
$DIMBLK2
  1

  9
$DIMSTYLE
  2
ISO-25
  9
$DIMCLRD
 70
     0
  9
$DIMCLRE
 70
     0
  9
$DIMCLRT
 70
     0
  9
$DIMTFAC
 40
1.0
  9
$DIMGAP
 40
1.524
  9
$DIMJUST
 70
     0
  9
$DIMSD1
 70
     0
  9
$DIMSD2
 70
     0
  9
$DIMTOLJ
 70
     0
  9
$DIMTZIN
 70
     0
  9
$DIMALTZ
 70
     0
  9
$DIMALTTZ
 70
     0
  9
$DIMUPT
 70
     0
  9
$DIMDEC
 70
     2
  9
$DIMTDEC
 70
     2
  9
$DIMALTU
 70
     2
  9
$DIMALTTD
 70
     3
  9
$DIMTXSTY
  7
Standard
  9
$DIMAUNIT
 70
     0
  9
$DIMADEC
 70
     2
  9
$DIMALTRND
 40
0.0
  9
$DIMAZIN
 70
     0
  9
$DIMDSEP
 70
    44
  9
$DIMATFIT
 70
     3
  9
$DIMFRAC
 70
     0
  9
$DIMLDRBLK
  1

  9
$DIMLUNIT
 70
     2
  9
$DIMLWD
 70
    -2
  9
$DIMLWE
 70
    -2
  9
$DIMTMOVE
 70
     0
  9
$LUNITS
 70
     2
  9
$LUPREC
 70
     2
  9
$SKETCHINC
 40
1.0
  9
$FILLETRAD
 40
10.0
  9
$AUNITS
 70
     0
  9
$AUPREC
 70
     2
  9
$MENU
  1
.
  9
$ELEVATION
 40
0.0
  9
$PELEVATION
 40
0.0
  9
$THICKNESS
 40
0.0
  9
$LIMCHECK
 70
     0
  9
$CHAMFERA
 40
0.0
  9
$CHAMFERB
 40
0.0
  9
$CHAMFERC
 40
0.0
  9
$CHAMFERD
 40
0.0
  9
$SKPOLY
 70
     0
  9
$TDCREATE
 40
2458985.682947997
  9
$TDUCREATE
 40
2458985.557947997
  9
$TDUPDATE
 40
2458985.682948403
  9
$TDUUPDATE
 40
2458985.557948403
  9
$TDINDWG
 40
0.0000000116
  9
$TDUSRTIMER
 40
0.0000000116
  9
$USRTIMER
 70
     1
  9
$ANGBASE
 50
0.0
  9
$ANGDIR
 70
     0
  9
$PDMODE
 70
     0
  9
$PDSIZE
 40
-1.0
  9
$PLINEWID
 40
0.0
  9
$SPLFRAME
 70
     0
  9
$SPLINETYPE
 70
     6
  9
$SPLINESEGS
 70
     8
  9
$HANDSEED
  5
CB
  9
$SURFTAB1
 70
     6
  9
$SURFTAB2
 70
     6
  9
$SURFTYPE
 70
     6
  9
$SURFU
 70
     6
  9
$SURFV
 70
     6
  9
$UCSBASE
  2

  9
$UCSNAME
  2

  9
$UCSORG
 10
0.0
 20
0.0
 30
0.0
  9
$UCSXDIR
 10
1.0
 20
0.0
 30
0.0
  9
$UCSYDIR
 10
0.0
 20
1.0
 30
0.0
  9
$UCSORTHOREF
  2

  9
$UCSORTHOVIEW
 70
     0
  9
$UCSORGTOP
 10
0.0
 20
0.0
 30
0.0
  9
$UCSORGBOTTOM
 10
0.0
 20
0.0
 30
0.0
  9
$UCSORGLEFT
 10
0.0
 20
0.0
 30
0.0
  9
$UCSORGRIGHT
 10
0.0
 20
0.0
 30
0.0
  9
$UCSORGFRONT
 10
0.0
 20
0.0
 30
0.0
  9
$UCSORGBACK
 10
0.0
 20
0.0
 30
0.0
  9
$PUCSBASE
  2

  9
$PUCSNAME
  2

  9
$PUCSORG
 10
0.0
 20
0.0
 30
0.0
  9
$PUCSXDIR
 10
1.0
 20
0.0
 30
0.0
  9
$PUCSYDIR
 10
0.0
 20
1.0
 30
0.0
  9
$PUCSORTHOREF
  2

  9
$PUCSORTHOVIEW
 70
     0
  9
$PUCSORGTOP
 10
0.0
 20
0.0
 30
0.0
  9
$PUCSORGBOTTOM
 10
0.0
 20
0.0
 30
0.0
  9
$PUCSORGLEFT
 10
0.0
 20
0.0
 30
0.0
  9
$PUCSORGRIGHT
 10
0.0
 20
0.0
 30
0.0
  9
$PUCSORGFRONT
 10
0.0
 20
0.0
 30
0.0
  9
$PUCSORGBACK
 10
0.0
 20
0.0
 30
0.0
  9
$USERI1
 70
     0
  9
$USERI2
 70
     0
  9
$USERI3
 70
     0
  9
$USERI4
 70
     0
  9
$USERI5
 70
     0
  9
$USERR1
 40
0.0
  9
$USERR2
 40
0.0
  9
$USERR3
 40
0.0
  9
$USERR4
 40
0.0
  9
$USERR5
 40
0.0
  9
$WORLDVIEW
 70
     1
  9
$SHADEDGE
 70
     3
  9
$SHADEDIF
 70
    70
  9
$TILEMODE
 70
     1
  9
$MAXACTVP
 70
    64
  9
$PINSBASE
 10
0.0
 20
0.0
 30
0.0
  9
$PLIMCHECK
 70
     0
  9
$PEXTMIN
 10
1.0000000000E+20
 20
1.0000000000E+20
 30
1.0000000000E+20
  9
$PEXTMAX
 10
-1.0000000000E+20
 20
-1.0000000000E+20
 30
-1.0000000000E+20
  9
$PLIMMIN
 10
0.0
 20
0.0
  9
$PLIMMAX
 10
420.0
 20
297.0
  9
$UNITMODE
 70
     0
  9
$VISRETAIN
 70
     1
  9
$PLINEGEN
 70
     0
  9
$PSLTSCALE
 70
     1
  9
$TREEDEPTH
 70
  3020
  9
$CMLSTYLE
  2
Standard
  9
$CMLJUST
 70
     0
  9
$CMLSCALE
 40
20.0
  9
$PROXYGRAPHICS
 70
     1
  9
$MEASUREMENT
 70
     1
  9
$CELWEIGHT
370
    -1
  9
$ENDCAPS
280
     0
  9
$JOINSTYLE
280
     0
  9
$LWDISPLAY
290
     1
  9
$INSUNITS
 70
     4
  9
$HYPERLINKBASE
  1

  9
$STYLESHEET
  1

  9
$XEDIT
290
     1
  9
$CEPSNTYPE
380
     0
  9
$PSTYLEMODE
290
     1
  9
$FINGERPRINTGUID
  2
{c248da43-c800-4fd0-a724-198b1e9cd2a0}
  9
$VERSIONGUID
  2
{FAEB1C32-E019-11D5-929B-00C0DF256EC4}
  9
$EXTNAMES
290
     1
  9
$PSVPSCALE
 40
0.0
  9
$OLESTARTUP
290
     0
  0
ENDSEC
  0
SECTION
  2
CLASSES
  0
CLASS
  1
ACDBDICTIONARYWDFLT
  2
AcDbDictionaryWithDefault
  3
ObjectDBX Classes
 90
        0
280
     0
281
     0
  0
CLASS
  1
VISUALSTYLE
  2
AcDbVisualStyle
  3
ObjectDBX Classes
 90
     4095
280
     0
281
     0
  0
CLASS
  1
MATERIAL
  2
AcDbMaterial
  3
ObjectDBX Classes
 90
     1153
280
     0
281
     0
  0
CLASS
  1
SCALE
  2
AcDbScale
  3
ObjectDBX Classes
 90
     1153
280
     0
281
     0
  0
CLASS
  1
TABLESTYLE
  2
AcDbTableStyle
  3
ObjectDBX Classes
 90
     4095
280
     0
281
     0
  0
CLASS
  1
MLEADERSTYLE
  2
AcDbMLeaderStyle
  3
ACDB_MLEADERSTYLE_CLASS
 90
     4095
280
     0
281
     0
  0
CLASS
  1
SUN
  2
AcDbSun
  3
SCENEOE
 90
     1153
280
     0
281
     0
  0
CLASS
  1
ACDBPLACEHOLDER
  2
AcDbPlaceHolder
  3
ObjectDBX Classes
 90
        0
280
     0
281
     0
  0
CLASS
  1
LAYOUT
  2
AcDbLayout
  3
ObjectDBX Classes
 90
        0
280
     0
281
     0
  0
ENDSEC
  0
SECTION
  2
TABLES
  0
TABLE
  2
VPORT
  5
8
330
0
100
AcDbSymbolTable
 70
     1
  0
VPORT
  5
29
330
8
100
AcDbSymbolTableRecord
100
AcDbViewportTableRecord
  2
*Active
 70
     0
 10
0.0
 20
0.0
 11
1.0
 21
1.0
 12
139.7
 22
107.95
 13
0.0
 23
0.0
 14
10.0
 24
10.0
 15
10.0
 25
10.0
 16
0.0
 26
0.0
 36
1.0
 17
0.0
 27
0.0
 37
0.0
 40
215.9
 41
1.2941176471
 42
50.0
 43
0.0
 44
0.0
 50
0.0
 51
0.0
 71
     0
 72
  2000
 73
     1
 74
     3
 75
     0
 76
     0
 77
     0
 78
     0
281
     0
 65
     1
110
0.0
120
0.0
130
0.0
111
1.0
121
0.0
131
0.0
112
0.0
122
1.0
132
0.0
 79
     0
146
0.0
  0
ENDTAB
  0
TABLE
  2
LTYPE
  5
5
330
0
100
AcDbSymbolTable
 70
     6
  0
LTYPE
  5
14
330
5
100
AcDbSymbolTableRecord
100
AcDbLinetypeTableRecord
  2
ByBlock
 70
     0
  3

 72
    65
 73
     0
 40
0.0
  0
LTYPE
  5
15
330
5
100
AcDbSymbolTableRecord
100
AcDbLinetypeTableRecord
  2
ByLayer
 70
     0
  3

 72
    65
 73
     0
 40
0.0
  0
LTYPE
  5
16
330
5
100
AcDbSymbolTableRecord
100
AcDbLinetypeTableRecord
  2
Continuous
 70
     0
  3
Solid line
 72
    65
 73
     0
 40
0.0
  0
LTYPE
  5
6E
330
5
100
AcDbSymbolTableRecord
100
AcDbLinetypeTableRecord
  2
HIDDEN
 70
     0
  3
Hidden __ __ __ __ __ __ __ __ __ __ __ __ __ __
 72
    65
 73
     2
 40
1.905
 49
1.27
 74
     0
 49
-0.635
 74
     0
  0
LTYPE
  5
6F
330
5
100
AcDbSymbolTableRecord
100
AcDbLinetypeTableRecord
  2
PHANTOM
 70
     0
  3
Phantom ______  __  __  ______  __  __  ______
 72
    65
 73
     6
 40
12.7
 49
6.35
 74
     0
 49
-1.27
 74
     0
 49
1.27
 74
     0
 49
-1.27
 74
     0
 49
1.27
 74
     0
 49
-1.27
 74
     0
  0
LTYPE
  5
70
330
5
100
AcDbSymbolTableRecord
100
AcDbLinetypeTableRecord
  2
CENTER
 70
     0
  3
Center ____ _ ____ _ ____ _ ____ _ ____ _ ____
 72
    65
 73
     4
 40
10.16
 49
6.35
 74
     0
 49
-1.27
 74
     0
 49
1.27
 74
     0
 49
-1.27
 74
     0
  0
LTYPE
  5
71
330
5
100
AcDbSymbolTableRecord
100
AcDbLinetypeTableRecord
  2
CENTERX2
 70
     0
  3
Center (2x) ________  __  ________  __  _____
 72
    65
 73
     4
 40
20.32
 49
12.7
 74
     0
 49
-2.54
 74
     0
 49
2.54
 74
     0
 49
-2.54
 74
     0
  0
LTYPE
  5
72
330
5
100
AcDbSymbolTableRecord
100
AcDbLinetypeTableRecord
  2
DOT2
 70
     0
  3
Dot (.5x) ........................................
 72
    65
 73
     2
 40
0.635
 49
0.0
 74
     0
 49
-0.635
 74
     0
  0
ENDTAB
  0
TABLE
  2
LAYER
  5
2
330
0
100
AcDbSymbolTable
 70
    17
  0
LAYER
  5
10
330
2
100
AcDbSymbolTableRecord
100
AcDbLayerTableRecord
  2
0
 70
     0
 62
     7
  6
Continuous
370
    -3
390
F
  0
LAYER
  5
73
330
2
100
AcDbSymbolTableRecord
100
AcDbLayerTableRecord
  2
FORMAT
 70
     0
 62
     7
  6
Continuous
370
    -3
390
F
  0
LAYER
  5
74
330
2
100
AcDbSymbolTableRecord
100
AcDbLayerTableRecord
  2
YARDIMCI_GEOMETRI
 70
     0
 62
    -6
  6
Continuous
290
     0
370
    -3
390
F
  0
LAYER
  5
75
330
2
100
AcDbSymbolTableRecord
100
AcDbLayerTableRecord
  2
SAYFA_CERCEVESI
 70
     0
 62
     7
  6
Continuous
370
    25
390
F
  0
LAYER
  5
76
330
2
100
AcDbSymbolTableRecord
100
AcDbLayerTableRecord
  2
ANTET
 70
     0
 62
     7
  6
Continuous
370
    -3
390
F
  0
LAYER
  5
77
330
2
100
AcDbSymbolTableRecord
100
AcDbLayerTableRecord
  2
OLCU
 70
     0
 62
   150
  6
Continuous
370
    -3
390
F
  0
LAYER
  5
78
330
2
100
AcDbSymbolTableRecord
100
AcDbLayerTableRecord
  2
METIN
 70
     0
 62
    96
  6
Continuous
370
    -3
390
F
  0
LAYER
  5
79
330
2
100
AcDbSymbolTableRecord
100
AcDbLayerTableRecord
  2
BALON
 70
     0
 62
     5
  6
Continuous
370
    -3
390
F
  0
LAYER
  5
7A
330
2
100
AcDbSymbolTableRecord
100
AcDbLayerTableRecord
  2
VURGU
 70
     0
 62
     7
  6
Continuous
370
    -3
390
F
  0
LAYER
  5
7B
330
2
100
AcDbSymbolTableRecord
100
AcDbLayerTableRecord
  2
SILIK
 70
     0
 62
     7
  6
Continuous
370
    -3
390
F
  0
LAYER
  5
7C
330
2
100
AcDbSymbolTableRecord
100
AcDbLayerTableRecord
  2
MODEL
 70
     0
 62
     7
  6
Continuous
370
    -3
390
F
  0
LAYER
  5
7D
330
2
100
AcDbSymbolTableRecord
100
AcDbLayerTableRecord
  2
DETAYLANDıRMA
 70
     0
 62
   190
  6
Continuous
370
    -3
390
F
  0
LAYER
  5
7E
330
2
100
AcDbSymbolTableRecord
100
AcDbLayerTableRecord
  2
TOLERANS
 70
     0
 62
   230
  6
Continuous
370
    -3
390
F
  0
LAYER
  5
7F
330
2
100
AcDbSymbolTableRecord
100
AcDbLayerTableRecord
  2
MERKEZ_CIZGILERI
 70
     0
 62
    30
  6
Continuous
370
    -3
390
F
  0
LAYER
  5
80
330
2
100
AcDbSymbolTableRecord
100
AcDbLayerTableRecord
  2
KESIT-DETAY_CIZGILERI
 70
     0
 62
     7
  6
Continuous
370
    -3
390
F
  0
LAYER
  5
81
330
2
100
AcDbSymbolTableRecord
100
AcDbLayerTableRecord
  2
\U+041E\U+0421\U+0415\U+0412\U+042B\U+0415
 70
     0
 62
     7
  6
Continuous
370
    -3
390
F
  0
LAYER
  5
82
330
2
100
AcDbSymbolTableRecord
100
AcDbLayerTableRecord
  2
\U+0412\U+041E\U+0414\U+042F\U+041D\U+042B\U+0415_\U+0417\U+041D\U+0410\U+041A\U+0418
 70
     0
 62
    11
  6
Continuous
370
    -3
390
F
  0
ENDTAB
  0
TABLE
  2
STYLE
  5
3
330
0
100
AcDbSymbolTable
 70
     1
  0
STYLE
  5
11
330
3
100
AcDbSymbolTableRecord
100
AcDbTextStyleTableRecord
  2
Standard
 70
     0
 40
0.0
 41
1.0
 50
0.0
 71
     0
 42
3.5
  3
txt
  4

  0
ENDTAB
  0
TABLE
  2
VIEW
  5
6
330
0
100
AcDbSymbolTable
 70
     0
  0
ENDTAB
  0
TABLE
  2
UCS
  5
7
330
0
100
AcDbSymbolTable
 70
     0
  0
ENDTAB
  0
TABLE
  2
APPID
  5
9
330
0
100
AcDbSymbolTable
 70
     1
  0
APPID
  5
12
330
9
100
AcDbSymbolTableRecord
100
AcDbRegAppTableRecord
  2
ACAD
 70
     0
  0
ENDTAB
  0
TABLE
  2
DIMSTYLE
  5
A
330
0
100
AcDbSymbolTable
 70
     1
100
AcDbDimStyleTable
  0
DIMSTYLE
105
27
330
A
100
AcDbSymbolTableRecord
100
AcDbDimStyleTableRecord
  2
ISO-25
 70
     0
 41
2.5
 42
0.625
 43
3.75
 44
1.25
 73
     0
 74
     0
 77
     1
 78
     8
140
2.5
141
2.5
143
0.0393700787
147
0.625
171
     3
172
     1
178
     0
271
     2
272
     2
274
     3
278
    44
283
     0
284
     8
340
11
  0
ENDTAB
  0
TABLE
  2
BLOCK_RECORD
  5
1
330
0
100
AcDbSymbolTable
 70
     3
  0
BLOCK_RECORD
  5
1F
330
1
100
AcDbSymbolTableRecord
100
AcDbBlockTableRecord
  2
*Model_Space
340
22
  0
BLOCK_RECORD
  5
1B
330
1
100
AcDbSymbolTableRecord
100
AcDbBlockTableRecord
  2
*Paper_Space
340
1E
  0
BLOCK_RECORD
  5
23
330
1
100
AcDbSymbolTableRecord
100
AcDbBlockTableRecord
  2
*Paper_Space0
340
26
  0
BLOCK_RECORD
  5
88
330
1
100
AcDbSymbolTableRecord
100
AcDbBlockTableRecord
  2
SW_CENTERMARKSYMBOL_0
340
0
102
{BLKREFS
331
93
102
}
  0
BLOCK_RECORD
  5
B2
330
1
100
AcDbSymbolTableRecord
100
AcDbBlockTableRecord
  2
SW_CENTERMARKSYMBOL_1
340
0
102
{BLKREFS
331
BD
102
}
  0
ENDTAB
  0
ENDSEC
  0
SECTION
  2
BLOCKS
  0
BLOCK
  5
20
330
1F
100
AcDbEntity
  8
0
100
AcDbBlockBegin
  2
*Model_Space
 70
     0
 10
0.0
 20
0.0
 30
0.0
  3
*Model_Space
  1

  0
ENDBLK
  5
21
330
1F
100
AcDbEntity
  8
0
100
AcDbBlockEnd
  0
BLOCK
  5
1C
330
1B
100
AcDbEntity
 67
     1
  8
0
100
AcDbBlockBegin
  2
*Paper_Space
 70
     0
 10
0.0
 20
0.0
 30
0.0
  3
*Paper_Space
  1

  0
ENDBLK
  5
1D
330
1B
100
AcDbEntity
 67
     1
  8
0
100
AcDbBlockEnd
  0
BLOCK
  5
24
330
23
100
AcDbEntity
  8
0
100
AcDbBlockBegin
  2
*Paper_Space0
 70
     0
 10
0.0
 20
0.0
 30
0.0
  3
*Paper_Space0
  1

  0
ENDBLK
  5
25
330
23
100
AcDbEntity
  8
0
100
AcDbBlockEnd
  0
BLOCK
  5
89
330
88
100
AcDbEntity
  8
0
100
AcDbBlockBegin
  2
SW_CENTERMARKSYMBOL_0
 70
     0
 10
0.0
 20
0.0
 30
0.0
  3
SW_CENTERMARKSYMBOL_0
  1

  0
LINE
  5
8B
330
88
100
AcDbEntity
  8
FORMAT
 62
     0
100
AcDbLine
 10
0.0
 20
0.0
 30
0.0
 11
0.0
 21
2.5
 31
0.0
  0
LINE
  5
8C
330
88
100
AcDbEntity
  8
FORMAT
 62
     0
100
AcDbLine
 10
0.0
 20
0.0
 30
0.0
 11
-2.5
 21
0.0
 31
0.0
  0
LINE
  5
8D
330
88
100
AcDbEntity
  8
FORMAT
 62
     0
100
AcDbLine
 10
0.0
 20
0.0
 30
0.0
 11
0.0
 21
-2.5
 31
0.0
  0
LINE
  5
8E
330
88
100
AcDbEntity
  8
FORMAT
 62
     0
100
AcDbLine
 10
0.0
 20
0.0
 30
0.0
 11
2.5
 21
0.0
 31
0.0
  0
LINE
  5
8F
330
88
100
AcDbEntity
  8
FORMAT
 62
     0
100
AcDbLine
 10
0.0
 20
5.0
 30
0.0
 11
0.0
 21
102.5
 31
0.0
  0
LINE
  5
90
330
88
100
AcDbEntity
  8
FORMAT
 62
     0
100
AcDbLine
 10
-5.0
 20
0.0
 30
0.0
 11
-102.5
 21
0.0
 31
0.0
  0
LINE
  5
91
330
88
100
AcDbEntity
  8
FORMAT
 62
     0
100
AcDbLine
 10
0.0
 20
-5.0
 30
0.0
 11
0.0
 21
-102.5
 31
0.0
  0
LINE
  5
92
330
88
100
AcDbEntity
  8
FORMAT
 62
     0
100
AcDbLine
 10
5.0
 20
0.0
 30
0.0
 11
102.5
 21
0.0
 31
0.0
  0
ENDBLK
  5
8A
330
88
100
AcDbEntity
  8
0
100
AcDbBlockEnd
  0
BLOCK
  5
B3
330
B2
100
AcDbEntity
  8
0
100
AcDbBlockBegin
  2
SW_CENTERMARKSYMBOL_1
 70
     0
 10
0.0
 20
0.0
 30
0.0
  3
SW_CENTERMARKSYMBOL_1
  1

  0
LINE
  5
B5
330
B2
100
AcDbEntity
  8
FORMAT
 62
     0
100
AcDbLine
 10
0.0
 20
0.0
 30
0.0
 11
0.0
 21
2.5
 31
0.0
  0
LINE
  5
B6
330
B2
100
AcDbEntity
  8
FORMAT
 62
     0
100
AcDbLine
 10
0.0
 20
0.0
 30
0.0
 11
-2.5
 21
0.0
 31
0.0
  0
LINE
  5
B7
330
B2
100
AcDbEntity
  8
FORMAT
 62
     0
100
AcDbLine
 10
0.0
 20
0.0
 30
0.0
 11
0.0
 21
-2.5
 31
0.0
  0
LINE
  5
B8
330
B2
100
AcDbEntity
  8
FORMAT
 62
     0
100
AcDbLine
 10
0.0
 20
0.0
 30
0.0
 11
2.5
 21
0.0
 31
0.0
  0
LINE
  5
B9
330
B2
100
AcDbEntity
  8
FORMAT
 62
     0
100
AcDbLine
 10
0.0
 20
5.0
 30
0.0
 11
0.0
 21
65.0
 31
0.0
  0
LINE
  5
BA
330
B2
100
AcDbEntity
  8
FORMAT
 62
     0
100
AcDbLine
 10
-5.0
 20
0.0
 30
0.0
 11
-65.0
 21
0.0
 31
0.0
  0
LINE
  5
BB
330
B2
100
AcDbEntity
  8
FORMAT
 62
     0
100
AcDbLine
 10
0.0
 20
-5.0
 30
0.0
 11
0.0
 21
-65.0
 31
0.0
  0
LINE
  5
BC
330
B2
100
AcDbEntity
  8
FORMAT
 62
     0
100
AcDbLine
 10
5.0
 20
0.0
 30
0.0
 11
65.0
 21
0.0
 31
0.0
  0
ENDBLK
  5
B4
330
B2
100
AcDbEntity
  8
0
100
AcDbBlockEnd
  0
ENDSEC
  0
SECTION
  2
ENTITIES
  0
LINE
  5
83
330
1F
100
AcDbEntity
  8
0
  6
Continuous
 62
     7
370
    25
100
AcDbLine
 10
148.5434552722
 20
46.8862139987
 30
0.0
 11
295.4314254395
 21
46.8862139987
 31
0.0
  0
LINE
  5
84
330
1F
100
AcDbEntity
  8
0
  6
Continuous
 62
     7
370
    25
100
AcDbLine
 10
295.4314254395
 20
171.8862139987
 30
0.0
 11
148.5309528096
 21
171.8862139987
 31
0.0
  0
CIRCLE
  5
85
330
1F
100
AcDbEntity
  8
0
  6
Continuous
 62
     7
370
    25
100
AcDbCircle
 10
70.4314254395
 20
109.3862139987
 30
0.0
 40
81.80000000000003
  0
CIRCLE
  5
86
330
1F
100
AcDbEntity
  8
0
  6
Continuous
 62
     7
370
    25
100
AcDbCircle
 10
70.4314254395
 20
109.3862139987
 30
0.0
 40
100.0
  0
LINE
  5
87
330
1F
100
AcDbEntity
  8
0
  6
Continuous
 62
     7
370
    25
100
AcDbLine
 10
295.4314254395
 20
171.8862139987
 30
0.0
 11
295.4314254395
 21
46.8862139987
 31
0.0
  0
INSERT
  5
93
330
1F
100
AcDbEntity
  8
FORMAT
100
AcDbBlockReference
  2
SW_CENTERMARKSYMBOL_0
 10
70.4314254395
 20
109.3862139987
 30
0.0
  0
LINE
  5
94
330
1F
100
AcDbEntity
  8
0
  6
Continuous
 62
     7
370
    25
100
AcDbLine
 10
-29.5685745605
 20
-73.8299219643
 30
0.0
 11
-29.5685745605
 21
-554.8299219643
 31
0.0
  0
LINE
  5
95
330
1F
100
AcDbEntity
  8
0
  6
Continuous
 62
     7
370
    25
100
AcDbLine
 10
170.4314254395
 20
-251.8643654206
 30
0.0
 11
170.4314254395
 21
-73.8299219643
 31
0.0
  0
LINE
  5
96
330
1F
100
AcDbEntity
  8
0
  6
Continuous
 62
     7
370
    25
100
AcDbLine
 10
170.4314254395
 20
-554.8299219643
 30
0.0
 11
170.4314254395
 21
-376.8299219643
 31
0.0
  0
LINE
  5
97
330
1F
100
AcDbEntity
  8
0
  6
Continuous
 62
     7
370
    25
100
AcDbLine
 10
170.4314254395
 20
-376.8299219643
 30
0.0
 11
295.4314254395
 21
-376.8299219643
 31
0.0
  0
LINE
  5
98
330
1F
100
AcDbEntity
  8
0
  6
Continuous
 62
     7
370
    25
100
AcDbLine
 10
295.4314254395
 20
-251.8299219643
 30
0.0
 11
170.4098445876
 21
-251.8299219643
 31
0.0
  0
SPLINE
  5
99
330
1F
100
AcDbEntity
  8
0
  6
Continuous
 62
     7
370
    25
100
AcDbSpline
210
0.0
220
0.0
230
1.0
 70
     8
 71
     3
 72
    45
 73
    41
 74
     0
 42
0.000000001
 43
0.00000001
 40
0.0
 40
0.0
 40
0.0
 40
0.0
 40
0.0062891015958412
 40
0.0291762303788717
 40
0.0527866415806733
 40
0.0763982994813371
 40
0.098467385057097
 40
0.1205378503357833
 40
0.1431384796287973
 40
0.1657406135753471
 40
0.1900741162444142
 40
0.2144091349606327
 40
0.2392839408561966
 40
0.2641594648917656
 40
0.291951491382707
 40
0.3197425440473138
 40
0.3483306368024853
 40
0.3769144352858505
 40
0.3988727274777036
 40
0.4208286132719218
 40
0.4433795090974378
 40
0.465927867402373
 40
0.4879179018372531
 40
0.5099073045141475
 40
0.5326569883146799
 40
0.5554084694994355
 40
0.5960634591250772
 40
0.6376322252822701
 40
0.6609561947195995
 40
0.6842818232043353
 40
0.7318472226213344
 40
0.7597041166965336
 40
0.7875599213390092
 40
0.8162196312221467
 40
0.8448762633125155
 40
0.8725974253782147
 40
0.900315080478063
 40
0.9291422117375726
 40
0.9579659391357681
 40
1.0
 40
1.0
 40
1.0
 40
1.0
 10
170.4098409868068
 20
-251.8643654205832
 30
0.0
 10
170.4160768719286
 20
-251.8543671328615
 30
0.0
 10
170.4450062218773
 20
-251.8079833463198
 30
0.0
 10
170.2810018060074
 20
-252.0707165095478
 30
0.0
 10
169.9054925456428
 20
-252.6736145608982
 30
0.0
 10
169.3097440684989
 20
-253.6387623811135
 30
0.0
 10
168.5453389022625
 20
-254.8908583427464
 30
0.0
 10
167.6315872457878
 20
-256.410127945214
 30
0.0
 10
166.5633423356677
 20
-258.2188485431388
 30
0.0
 10
165.3274162471421
 20
-260.3607117891488
 30
0.0
 10
163.9419856558777
 20
-262.8309435877609
 30
0.0
 10
162.4149321253139
 20
-265.6543768053297
 30
0.0
 10
160.8052584347649
 20
-268.763067573355
 30
0.0
 10
159.0791383931044
 20
-272.2800100296607
 30
0.0
 10
157.2787960534355
 20
-276.2050635075703
 30
0.0
 10
155.4356243025329
 20
-280.5990147757437
 30
0.0
 10
153.6695977203671
 20
-285.3155246575229
 30
0.0
 10
152.1708979280869
 20
-289.9575163492122
 30
0.0
 10
150.966767302996
 20
-294.3953311197529
 30
0.0
 10
150.0264274539541
 20
-298.5966648758612
 30
0.0
 10
149.2786705650099
 20
-302.9526571171962
 30
0.0
 10
148.7581013029157
 20
-307.4016556713352
 30
0.0
 10
148.4916027159933
 20
-311.8709165583567
 30
0.0
 10
148.4763101154753
 20
-316.3741797240843
 30
0.0
 10
148.7280004352955
 20
-320.9117315534191
 30
0.0
 10
149.3727351544717
 20
-326.631355290328
 30
0.0
 10
150.6736834991883
 20
-333.4082997452037
 30
0.0
 10
152.4939810624024
 20
-339.8321342621053
 30
0.0
 10
154.2369703075471
 20
-344.8923207019955
 30
0.0
 10
156.2224294544236
 20
-350.0492120241935
 30
0.0
 10
158.4326980477479
 20
-355.0477829329022
 30
0.0
 10
160.735928463154
 20
-359.7669126900657
 30
0.0
 10
162.569501289883
 20
-363.3032812465729
 30
0.0
 10
164.3226998876035
 20
-366.5219860214233
 30
0.0
 10
165.9311584946917
 20
-369.3566399186535
 30
0.0
 10
167.3366768910248
 20
-371.7576020200358
 30
0.0
 10
168.5306363444073
 20
-373.7464796659492
 30
0.0
 10
169.46737965118
 20
-375.2790983873628
 30
0.0
 10
170.248278011675
 20
-376.5376000073952
 30
0.0
 10
170.3632324726304
 20
-376.7210790405218
 30
0.0
 10
170.4314254395139
 20
-376.8299219642834
 30
0.0
  0
LINE
  5
9A
330
1F
100
AcDbEntity
  8
0
  6
Continuous
 62
     7
370
    25
100
AcDbLine
 10
170.4314254395
 20
-554.8299219643
 30
0.0
 11
-29.5685745605
 21
-554.8299219643
 31
0.0
  0
LINE
  5
9B
330
1F
100
AcDbEntity
  8
0
  6
Continuous
 62
     7
370
    25
100
AcDbLine
 10
170.4314254395
 20
-73.8299219643
 30
0.0
 11
-29.5685745605
 21
-73.8299219643
 31
0.0
  0
LINE
  5
9C
330
1F
100
AcDbEntity
  8
0
  6
Continuous
 62
     7
370
    25
100
AcDbLine
 10
295.4314254395
 20
-251.8299219643
 30
0.0
 11
295.4314254395
 21
-376.8299219643
 31
0.0
  0
LINE
  5
9D
330
1F
100
AcDbEntity
  8
0
  6
Continuous
 62
     7
370
    25
100
AcDbLine
 10
170.4314254395
 20
611.2870344911
 30
0.0
 11
170.4314254395
 21
789.2870344911
 31
0.0
  0
LINE
  5
9E
330
1F
100
AcDbEntity
  8
0
  6
Continuous
 62
     7
370
    25
100
AcDbLine
 10
170.4314254395
 20
308.2870344911
 30
0.0
 11
170.4314254395
 21
486.3207034055
 31
0.0
  0
LINE
  5
9F
330
1F
100
AcDbEntity
  8
0
  6
Continuous
 62
     7
370
    25
100
AcDbLine
 10
-29.5685745605
 20
789.2870344911
 30
0.0
 11
-29.5685745605
 21
308.2870344911
 31
0.0
  0
LINE
  5
A0
330
1F
100
AcDbEntity
  8
0
  6
Continuous
 62
     7
370
    25
100
AcDbLine
 10
170.4103930801
 20
486.2870344911
 30
0.0
 11
295.4314254395
 21
486.2870344911
 31
0.0
  0
LINE
  5
A1
330
1F
100
AcDbEntity
  8
0
  6
Continuous
 62
     7
370
    25
100
AcDbLine
 10
295.4314254395
 20
611.2870344911
 30
0.0
 11
170.4314254395
 21
611.2870344911
 31
0.0
  0
SPLINE
  5
A2
330
1F
100
AcDbEntity
  8
0
  6
Continuous
 62
     7
370
    25
100
AcDbSpline
210
0.0
220
0.0
230
1.0
 70
     8
 71
     3
 72
    46
 73
    42
 74
     0
 42
0.000000001
 43
0.00000001
 40
0.0
 40
0.0
 40
0.0
 40
0.0
 40
0.0231269060812955
 40
0.046434748162511
 40
0.0703016271572581
 40
0.0943544376944505
 40
0.1174779439111773
 40
0.1407504785379874
 40
0.164461125180275
 40
0.1883102857372991
 40
0.2133347699321844
 40
0.238501269782269
 40
0.264093123368227
 40
0.2898259607188596
 40
0.3180875967651286
 40
0.346549086320532
 40
0.3756939010310816
 40
0.4051098058840862
 40
0.4260645079821693
 40
0.4471483783263202
 40
0.4686694406815209
 40
0.4903553402317417
 40
0.5113145925013577
 40
0.5324330686276357
 40
0.5540383018386958
 40
0.5758023652940449
 40
0.6171042103265764
 40
0.6592684247212504
 40
0.6837386180254811
 40
0.7083402962954256
 40
0.733334787454089
 40
0.7584602706967662
 40
0.7868091222912658
 40
0.8153611331559509
 40
0.8445977571226023
 40
0.8740957621918448
 40
0.9007674210275602
 40
0.9276755750437642
 40
0.9553882427215777
 40
0.9834029791559747
 40
0.9999999999999999
 40
0.9999999999999999
 40
0.9999999999999999
 40
0.9999999999999999
 10
170.4314254395139
 20
611.2870344910517
 30
0.0
 10
170.4103136183335
 20
611.2532843378613
 30
0.0
 10
170.3679248052204
 20
611.1855199832895
 30
0.0
 10
170.0239594677485
 20
610.6338257860119
 30
0.0
 10
169.473239954846
 20
609.7441161639795
 30
0.0
 10
168.7119692517449
 20
608.5007601205529
 30
0.0
 10
167.7733872165654
 20
606.9447033918532
 30
0.0
 10
166.6777396487151
 20
605.0940532357196
 30
0.0
 10
165.4280665445588
 20
602.9332789917582
 30
0.0
 10
164.0244899081342
 20
600.4353044811012
 30
0.0
 10
162.4913632243143
 20
597.6076492560054
 30
0.0
 10
160.8470579225252
 20
594.4374765200243
 30
0.0
 10
159.1440534393411
 20
590.9717388307762
 30
0.0
 10
157.3638842304249
 20
587.1005993508109
 30
0.0
 10
155.5534713152602
 20
582.81410650858
 30
0.0
 10
153.7611321334417
 20
578.0640431257202
 30
0.0
 10
152.102907715707
 20
572.9724497471634
 30
0.0
 10
150.7984246150225
 20
568.0823552775468
 30
0.0
 10
149.8405786194062
 20
563.5312164237191
 30
0.0
 10
149.1729019745747
 20
559.3833021268441
 30
0.0
 10
148.7097074132808
 20
555.1096197522352
 30
0.0
 10
148.4799677335052
 20
550.7948058187968
 30
0.0
 10
148.4889870263775
 20
546.4918996490743
 30
0.0
 10
148.7314342840986
 20
542.2120171156203
 30
0.0
 10
149.207435200676
 20
537.928354625797
 30
0.0
 10
150.1150174519089
 20
532.4113531822337
 30
0.0
 10
151.6982979778154
 20
525.8005408197432
 30
0.0
 10
153.7621769517568
 20
519.4699823139783
 30
0.0
 10
155.6809096432947
 20
514.4643990921198
 30
0.0
 10
157.3055426369085
 20
510.6143706292081
 30
0.0
 10
158.9755960105732
 20
506.9588982120177
 30
0.0
 10
160.725147821663
 20
503.374237297662
 30
0.0
 10
162.5099579104982
 20
499.9250570657143
 30
0.0
 10
164.2871624457078
 20
496.6587795981426
 30
0.0
 10
165.9407707640888
 20
493.742168974422
 30
0.0
 10
167.3660560867349
 20
491.3102564502899
 30
0.0
 10
168.5311186629568
 20
489.3699732199212
 30
0.0
 10
169.4365671850175
 20
487.888843752562
 30
0.0
 10
170.0737452393844
 20
486.8598739280957
 30
0.0
 10
170.3999994487149
 20
486.3372990112163
 30
0.0
 10
170.4075721586274
 20
486.3252033746963
 30
0.0
 10
170.4103894523619
 20
486.3207034055472
 30
0.0
  0
LINE
  5
A3
330
1F
100
AcDbEntity
  8
0
  6
Continuous
 62
     7
370
    25
100
AcDbLine
 10
-29.5685745605
 20
789.2870344911
 30
0.0
 11
170.4314254395
 21
789.2870344911
 31
0.0
  0
LINE
  5
A4
330
1F
100
AcDbEntity
  8
0
  6
Continuous
 62
     7
370
    25
100
AcDbLine
 10
-29.5685745605
 20
308.2870344911
 30
0.0
 11
170.4314254395
 21
308.2870344911
 31
0.0
  0
LINE
  5
A5
330
1F
100
AcDbEntity
  8
0
  6
Continuous
 62
     7
370
    25
100
AcDbLine
 10
295.4314254395
 20
611.2870344911
 30
0.0
 11
295.4314254395
 21
486.2870344911
 31
0.0
  0
LINE
  5
A6
330
1F
100
AcDbEntity
  8
0
  6
Continuous
 62
     7
370
    25
100
AcDbLine
 10
410.3651660921
 20
9.3862139987
 30
0.0
 11
891.3651660921
 21
9.3862139987
 31
0.0
  0
LINE
  5
A7
330
1F
100
AcDbEntity
  8
0
  6
Continuous
 62
     7
370
    25
100
AcDbLine
 10
891.3651660921
 20
209.3862139987
 30
0.0
 11
410.3651660921
 21
209.3862139987
 31
0.0
  0
LINE
  5
A8
330
1F
100
AcDbEntity
  8
0
  6
Continuous
 62
     7
370
    25
100
AcDbLine
 10
891.3651660921
 20
209.3862139987
 30
0.0
 11
891.3651660921
 21
9.3862139987
 31
0.0
  0
LINE
  5
A9
330
1F
100
AcDbEntity
  8
0
  6
Continuous
 62
     7
370
    25
100
AcDbLine
 10
410.3651660921
 20
209.3862139987
 30
0.0
 11
410.3651660921
 21
9.3862139987
 31
0.0
  0
LINE
  5
AA
330
1F
100
AcDbEntity
  8
0
  6
Continuous
 62
     7
370
    25
100
AcDbLine
 10
-156.9332389949
 20
209.3862139987
 30
0.0
 11
-637.9332389949
 21
209.3862139987
 31
0.0
  0
LINE
  5
AB
330
1F
100
AcDbEntity
  8
0
  6
Continuous
 62
     7
370
    25
100
AcDbLine
 10
-637.9332389949
 20
9.3862139987
 30
0.0
 11
-156.9332389949
 21
9.3862139987
 31
0.0
  0
CIRCLE
  5
AC
330
1F
100
AcDbEntity
  8
0
  6
Continuous
 62
     7
370
    25
100
AcDbCircle
 10
-397.4332389949
 20
109.3862139987
 30
0.0
 40
51.10000000000008
  0
CIRCLE
  5
AD
330
1F
100
AcDbEntity
  8
0
  6
Continuous
 62
     7
370
    25
100
AcDbCircle
 10
-397.4332389949
 20
109.3862139987
 30
0.0
 40
62.5
  0
LINE
  5
AE
330
1F
100
AcDbEntity
  8
0
  6
Continuous
 62
     7
370
    25
100
AcDbLine
 10
-637.9332389949
 20
109.3862139987
 30
0.0
 11
-637.9332389949
 21
209.3862139987
 31
0.0
  0
LINE
  5
AF
330
1F
100
AcDbEntity
  8
0
  6
Continuous
 62
     7
370
    25
100
AcDbLine
 10
-637.9332389949
 20
9.3862139987
 30
0.0
 11
-637.9332389949
 21
109.3862139987
 31
0.0
  0
LINE
  5
B0
330
1F
100
AcDbEntity
  8
0
  6
Continuous
 62
     7
370
    25
100
AcDbLine
 10
-156.9332389949
 20
109.3862139987
 30
0.0
 11
-156.9332389949
 21
209.3862139987
 31
0.0
  0
LINE
  5
B1
330
1F
100
AcDbEntity
  8
0
  6
Continuous
 62
     7
370
    25
100
AcDbLine
 10
-156.9332389949
 20
9.3862139987
 30
0.0
 11
-156.9332389949
 21
109.3862139987
 31
0.0
  0
INSERT
  5
BD
330
1F
100
AcDbEntity
  8
FORMAT
100
AcDbBlockReference
  2
SW_CENTERMARKSYMBOL_1
 10
-397.4332389949
 20
109.3862139987
 30
0.0
  0
LINE
  5
BE
330
1F
100
AcDbEntity
  8
0
  6
Continuous
 62
     7
370
    25
100
AcDbLine
 10
852.8639932285
 20
-324.4000823304
 30
0.0
 11
795.3220827412
 21
-291.1818444762
 31
0.0
  0
LINE
  5
BF
330
1F
100
AcDbEntity
  8
0
  6
Continuous
 62
     7
370
    25
100
AcDbLine
 10
670.3119234951
 20
-219.0150156575
 30
0.0
 11
512.7456314777
 21
-128.053931437
 31
0.0
  0
LINE
  5
C0
330
1F
100
AcDbEntity
  8
0
  6
Continuous
 62
     7
370
    25
100
AcDbLine
 10
412.7537582141
 20
-301.2637039132
 30
0.0
 11
752.8721199648
 21
-497.6098548065
 31
0.0
  0
LINE
  5
C1
330
1F
100
AcDbEntity
  8
0
  6
Continuous
 62
     7
370
    25
100
AcDbLine
 10
727.4837315232
 20
-330.3440910425
 30
0.0
 11
823.1553618831
 21
-275.1140344405
 31
0.0
  0
LINE
  5
C2
330
1F
100
AcDbEntity
  8
0
  6
Continuous
 62
     7
370
    25
100
AcDbLine
 10
760.6604410934
 20
-166.8579266429
 30
0.0
 11
664.9883572052
 21
-222.0882450612
 31
0.0
  0
SPLINE
  5
C3
330
1F
100
AcDbEntity
  8
0
  6
Continuous
 62
     7
370
    25
100
AcDbSpline
210
0.0
220
0.0
230
1.0
 70
     8
 71
     3
 72
    37
 73
    33
 74
     0
 42
0.000000001
 43
0.00000001
 40
0.0
 40
0.0
 40
0.0
 40
0.0
 40
0.0308061118670221
 40
0.0622246608111262
 40
0.0936447074704725
 40
0.1256841670298434
 40
0.1564857501195242
 40
0.1877763874156011
 40
0.2190693780359269
 40
0.2508375663734262
 40
0.2841713403253883
 40
0.3176942857188551
 40
0.3517838220226799
 40
0.3860611552419562
 40
0.4237069656467718
 40
0.4616189901979055
 40
0.5004412355583852
 40
0.5396245855657709
 40
0.5675372209483204
 40
0.5959142687628529
 40
0.6242887208661764
 40
0.6531753451786874
 40
0.6810940416008228
 40
0.7095479195400123
 40
0.7380036662135198
 40
0.7669944084740555
 40
0.8220103822456453
 40
0.8781750720170093
 40
0.9107705047864392
 40
0.9438022829512239
 40
0.9768348648559279
 40
1.0
 40
1.0
 40
1.0
 40
1.0
 10
659.3253800157777
 20
-246.4987340361703
 30
0.0
 10
659.3343163062287
 20
-247.7942587351303
 30
0.0
 10
659.3523665439424
 20
-250.411063650765
 30
0.0
 10
659.4999769662285
 20
-254.6186162885718
 30
0.0
 10
659.7401637316601
 20
-259.0365317726853
 30
0.0
 10
660.0797428159777
 20
-263.5668648648776
 30
0.0
 10
660.5176964776585
 20
-268.18557263757
 30
0.0
 10
661.0520738572183
 20
-272.82853385635
 30
0.0
 10
661.6967858845182
 20
-277.5479037727647
 30
0.0
 10
662.468326874124
 20
-282.3682246877903
 30
0.0
 10
663.3836935383773
 20
-287.268657237332
 30
0.0
 10
664.4626456653028
 20
-292.2208698892591
 30
0.0
 10
665.7090859209877
 20
-297.1255214476524
 30
0.0
 10
667.18762565433
 20
-302.0994808547858
 30
0.0
 10
668.9384768660223
 20
-307.0788527566995
 30
0.0
 10
671.029910177435
 20
-312.0299626580999
 30
0.0
 10
673.4576438629999
 20
-316.7557614619803
 30
0.0
 10
675.9931387433036
 20
-320.7473494010069
 30
0.0
 10
678.5415520488276
 20
-324.0410009467676
 30
0.0
 10
681.0043053640389
 20
-326.7073727555966
 30
0.0
 10
683.6989486701174
 20
-329.1183841874295
 30
0.0
 10
686.5779039930412
 20
-331.2004914475078
 30
0.0
 10
689.6382525840407
 20
-332.95109109577
 30
0.0
 10
692.8376080331791
 20
-334.3484995426996
 30
0.0
 10
696.2030664425012
 20
-335.4101151449238
 30
0.0
 10
700.7330905638443
 20
-336.332015850701
 30
0.0
 10
706.5272993733436
 20
-336.6554211088689
 30
0.0
 10
712.4623281749562
 20
-335.9572632946096
 30
0.0
 10
717.3708376230319
 20
-334.7499677392224
 30
0.0
 10
721.2358492689797
 20
-333.4115301396827
 30
0.0
 10
724.6302671571659
 20
-331.940448182851
 30
0.0
 10
726.6371555204657
 20
-330.7858774142366
 30
0.0
 10
727.46441048021
 20
-330.3099543822541
 30
0.0
  0
SPLINE
  5
C4
330
1F
100
AcDbEntity
  8
0
  6
Continuous
 62
     7
370
    25
100
AcDbSpline
210
0.0
220
0.0
230
1.0
 70
     8
 71
     3
 72
    16
 73
    12
 74
     0
 42
0.000000001
 43
0.00000001
 40
0.0
 40
0.0
 40
0.0
 40
0.0
 40
0.0355966948072583
 40
0.1477184119475674
 40
0.2622434813533224
 40
0.3776636061583762
 40
0.4883883881503105
 40
0.6000768877170037
 40
0.7150852671270792
 40
0.8313656827388444
 40
1.0
 40
1.0
 40
1.0
 40
1.0
 10
665.0124205935286
 20
-222.1307923316054
 30
0.0
 10
664.8630630976141
 20
-222.2011725106294
 30
0.0
 10
664.243262517015
 20
-222.493234690399
 30
0.0
 10
663.3427095215256
 20
-223.4346505623596
 30
0.0
 10
662.2934578204267
 20
-224.9957832789504
 30
0.0
 10
661.4304617243992
 20
-227.043084164001
 30
0.0
 10
660.7243996424176
 20
-229.5272052543524
 30
0.0
 10
660.1634176729344
 20
-232.4650002383072
 30
0.0
 10
659.7407738010696
 20
-235.9272880745893
 30
0.0
 10
659.4027817574793
 20
-240.4648532495417
 30
0.0
 10
659.3541587991591
 20
-244.2552735624079
 30
0.0
 10
659.3253800157777
 20
-246.4987340361703
 30
0.0
  0
LWPOLYLINE
  5
C5
330
1F
100
AcDbEntity
  8
0
  6
Continuous
 62
     7
370
    25
100
AcDbPolyline
 90
      107
 70
   128
 43
0.0
 10
533.4603729646
 20
-173.8384120839
 10
533.3361860467
 20
-169.072864626
 10
532.964061504
 20
-164.4674394906
 10
532.3453064377
 20
-160.0383134017
 10
531.4820942474
 20
-155.8010438262
 10
530.3774569975
 20
-151.7705143279
 10
529.0352747665
 20
-147.9608822887
 10
527.4602620185
 20
-144.3855291802
 10
525.6579510432
 20
-141.0570135604
 10
523.6346725237
 20
-137.987026962
 10
521.3975332996
 20
-135.1863528247
 10
518.9543914039
 20
-132.6648286188
 10
516.3138284617
 20
-130.4313112898
 10
513.4851195466
 20
-128.4936461489
 10
510.4782006018
 20
-126.8586393155
 10
507.3036335399
 20
-125.5320338108
 10
503.9725691434
 20
-124.518489385
 10
500.4967078974
 20
-123.8215661499
 10
496.8882588914
 20
-123.4437120737
 10
493.1598969341
 20
-123.3862543826
 10
489.3247180329
 20
-123.649394899
 10
485.3961933935
 20
-124.2322093321
 10
481.388122102
 20
-125.132650525
 10
477.314582655
 20
-126.3475556451
 10
473.1898835084
 20
-127.872657294
 10
469.0285128184
 20
-129.7025984964
 10
464.8450875512
 20
-131.8309515171
 10
460.6543021407
 20
-134.2502404386
 10
456.4708768735
 20
-136.9519674202
 10
452.3095061834
 20
-139.9266425474
 10
448.1848070368
 20
-143.1638171654
 10
444.1112675898
 20
-146.6521205801
 10
440.1031962983
 20
-150.3792999987
 10
436.1746716589
 20
-154.3322635675
 10
432.3394927577
 20
-158.4971263578
 10
428.6111308004
 20
-162.8592591371
 10
425.0026817944
 20
-167.403339755
 10
421.5268205485
 20
-172.1134069625
 10
418.1957561519
 20
-176.9729164769
 10
415.02118909
 20
-181.9647990937
 10
412.0142701453
 20
-187.0715206431
 10
409.1855612302
 20
-192.2751435795
 10
406.544998288
 20
-197.5573899876
 10
404.1018563923
 20
-202.8997057841
 10
401.8647171681
 20
-208.28332589
 10
399.8414386486
 20
-213.6893401433
 10
398.0391276733
 20
-219.0987597218
 10
396.4641149254
 20
-224.4925838419
 10
395.1219326944
 20
-229.8518664997
 10
394.0172954444
 20
-235.1577830195
 10
393.1540832541
 20
-240.3916961758
 10
392.5353281878
 20
-245.5352216578
 10
392.1632036452
 20
-250.5702926448
 10
392.0390167273
 20
-255.4792232662
 10
392.1632036452
 20
-260.2447707242
 10
392.5353281878
 20
-264.8501958595
 10
393.1540832541
 20
-269.2793219484
 10
394.0172954444
 20
-273.516591524
 10
395.1219326944
 20
-277.5471210223
 10
396.4641149254
 20
-281.3567530614
 10
398.0391276733
 20
-284.93210617
 10
399.8414386486
 20
-288.2606217897
 10
401.8647171681
 20
-291.3306083882
 10
404.1018563923
 20
-294.1312825254
 10
406.544998288
 20
-296.6528067314
 10
409.1855612302
 20
-298.8863240604
 10
412.0142701453
 20
-300.8239892013
 10
415.02118909
 20
-302.4589960347
 10
418.1957561519
 20
-303.7856015394
 10
421.5268205485
 20
-304.7991459652
 10
425.0026817944
 20
-305.4960692003
 10
428.6111308004
 20
-305.8739232765
 10
432.3394927577
 20
-305.9313809675
 10
436.1746716589
 20
-305.6682404512
 10
440.1031962983
 20
-305.0854260181
 10
444.1112675898
 20
-304.1849848252
 10
448.1848070368
 20
-302.970079705
 10
452.3095061834
 20
-301.4449780562
 10
456.4708768735
 20
-299.6150368538
 10
460.6543021407
 20
-297.486683833
 10
464.8450875512
 20
-295.0673949116
 10
469.0285128184
 20
-292.3656679299
 10
473.1898835084
 20
-289.3909928027
 10
477.314582655
 20
-286.1538181848
 10
481.388122102
 20
-282.6655147701
 10
485.3961933935
 20
-278.9383353515
 10
489.3247180329
 20
-274.9853717827
 10
493.1598969341
 20
-270.8205089924
 10
496.8882588914
 20
-266.4583762131
 10
500.4967078974
 20
-261.9142955952
 10
503.9725691434
 20
-257.2042283876
 10
507.3036335399
 20
-252.3447188733
 10
510.4782006018
 20
-247.3528362565
 10
513.4851195466
 20
-242.246114707
 10
516.3138284617
 20
-237.0424917706
 10
518.9543914039
 20
-231.7602453626
 10
521.3975332996
 20
-226.4179295661
 10
523.6346725237
 20
-221.0343094602
 10
525.6579510432
 20
-215.6282952069
 10
527.4602620185
 20
-210.2188756284
 10
529.0352747665
 20
-204.8250515082
 10
530.3774569975
 20
-199.4657688504
 10
531.4820942474
 20
-194.1598523307
 10
532.3453064377
 20
-188.9259391744
 10
532.964061504
 20
-183.7824136923
 10
533.3361860467
 20
-178.7473427054
 10
533.4603729646
 20
-173.8384120839
  0
LWPOLYLINE
  5
C6
330
1F
100
AcDbEntity
  8
0
  6
Continuous
 62
     7
370
    25
100
AcDbPolyline
 90
       15
 70
   128
 43
0.0
 10
873.5787347153
 20
-370.1845629773
 10
873.4545477974
 20
-365.4190155193
 10
873.0824232548
 20
-360.813590384
 10
872.4636681884
 20
-356.3844642951
 10
871.6004559981
 20
-352.1471947195
 10
870.4958187482
 20
-348.1166652213
 10
869.1536365172
 20
-344.3070331821
 10
867.5786237692
 20
-340.7316800735
 10
865.776312794
 20
-337.4031644538
 10
863.7530342745
 20
-334.3331778553
 10
861.5158950503
 20
-331.5325037181
 10
859.0727531546
 20
-329.0109795121
 10
856.4321902124
 20
-326.7774621831
 10
853.6034812973
 20
-324.8397970422
 10
852.8639932285
 20
-324.4000823304
  0
LWPOLYLINE
  5
C7
330
1F
100
AcDbEntity
  8
0
  6
Continuous
 62
     7
370
    25
100
AcDbPolyline
 90
       41
 70
   128
 43
0.0
 10
752.8721199648
 20
-497.6098548065
 10
755.1395508407
 20
-498.805146928
 10
758.3141179027
 20
-500.1317524327
 10
761.6451822992
 20
-501.1452968585
 10
765.1210435452
 20
-501.8422200937
 10
768.7294925512
 20
-502.2200741699
 10
772.4578545084
 20
-502.2775318609
 10
776.2930334097
 20
-502.0143913445
 10
780.221558049
 20
-501.4315769114
 10
784.2296293405
 20
-500.5311357185
 10
788.3031687875
 20
-499.3162305984
 10
792.4278679341
 20
-497.7911289495
 10
796.5892386242
 20
-495.9611877471
 10
800.7726638914
 20
-493.8328347264
 10
804.9634493019
 20
-491.4135458049
 10
809.1468745691
 20
-488.7118188233
 10
813.3082452592
 20
-485.7371436961
 10
817.4329444058
 20
-482.4999690782
 10
821.5064838528
 20
-479.0116656634
 10
825.5145551443
 20
-475.2844862448
 10
829.4430797836
 20
-471.3315226761
 10
833.2782586849
 20
-467.1666598858
 10
837.0066206421
 20
-462.8045271065
 10
840.6150696481
 20
-458.2604464886
 10
844.0909308941
 20
-453.550379281
 10
847.4219952906
 20
-448.6908697666
 10
850.5965623526
 20
-443.6989871499
 10
853.6034812973
 20
-438.5922656004
 10
856.4321902124
 20
-433.388642664
 10
859.0727531546
 20
-428.1063962559
 10
861.5158950503
 20
-422.7640804594
 10
863.7530342745
 20
-417.3804603535
 10
865.776312794
 20
-411.9744461002
 10
867.5786237692
 20
-406.5650265217
 10
869.1536365172
 20
-401.1712024016
 10
870.4958187482
 20
-395.8119197438
 10
871.6004559981
 20
-390.5060032241
 10
872.4636681884
 20
-385.2720900678
 10
873.0824232548
 20
-380.1285645857
 10
873.4545477974
 20
-375.0934935987
 10
873.5787347153
 20
-370.1845629773
  0
LWPOLYLINE
  5
C8
330
1F
100
AcDbEntity
  8
0
  6
Continuous
 62
     7
370
    25
100
AcDbPolyline
 90
       97
 70
   128
 43
0.0
 10
520.591029547
 20
-181.2677259015
 10
520.4671868094
 20
-176.9707450692
 10
520.0961889103
 20
-172.8351503498
 10
519.4796245196
 20
-168.8786509947
 10
518.6201338607
 20
-165.1181893417
 10
517.5213974046
 20
-161.5698682648
 10
516.1881201094
 20
-158.2488822196
 10
514.6260112732
 20
-155.1694521783
 10
512.8417600858
 20
-152.344764733
 10
510.8430069849
 20
-149.786915629
 10
508.6383109379
 20
-147.5068579689
 10
506.2371127919
 20
-145.5143553096
 10
503.6496948459
 20
-143.8179398534
 10
500.8871368209
 20
-142.4248759118
 10
497.9612684143
 20
-141.3411287983
 10
494.8846186439
 20
-140.5713392845
 10
491.6703621964
 20
-140.1188037273
 10
488.3322630114
 20
-139.9854599535
 10
484.8846153419
 20
-140.1718789614
 10
481.3421825446
 20
-140.6772624764
 10
477.7201338607
 20
-141.4994463686
 10
474.0339794586
 20
-142.6349099204
 10
470.2995040174
 20
-144.0787909024
 10
466.5326991342
 20
-145.8249063948
 10
462.7496948459
 20
-147.8657792628
 10
458.9666905576
 20
-150.1926701756
 10
455.1998856745
 20
-152.795615029
 10
451.4654102332
 20
-155.6634676135
 10
447.7792558311
 20
-158.7839473441
 10
444.1572071472
 20
-162.1436918476
 10
440.6147743499
 20
-165.7283141821
 10
437.1671266805
 20
-169.5224644445
 10
433.8290274954
 20
-173.5098955009
 10
430.6147710479
 20
-177.6735325593
 10
427.5381212775
 20
-181.9955462867
 10
424.612252871
 20
-186.4574291568
 10
421.8496948459
 20
-191.040074702
 10
419.2622768999
 20
-195.7238593307
 10
416.8610787539
 20
-200.4887263579
 10
414.656382707
 20
-205.3142718916
 10
412.657629606
 20
-210.1798322049
 10
410.8733784187
 20
-215.0645722217
 10
409.3112695825
 20
-219.9475747352
 10
407.9779922873
 20
-224.807929979
 10
406.8792558311
 20
-229.6248251658
 10
406.0197651722
 20
-234.3776336109
 10
405.4032007815
 20
-239.0460030589
 10
405.0322028824
 20
-243.609942835
 10
404.9083601449
 20
-248.0499094486
 10
405.0322028824
 20
-252.346890281
 10
405.4032007815
 20
-256.4824850004
 10
406.0197651722
 20
-260.4389843555
 10
406.8792558311
 20
-264.1994460085
 10
407.9779922873
 20
-267.7477670854
 10
409.3112695825
 20
-271.0687531306
 10
410.8733784187
 20
-274.1481831719
 10
412.657629606
 20
-276.9728706172
 10
414.656382707
 20
-279.5307197212
 10
416.8610787539
 20
-281.8107773813
 10
419.2622768999
 20
-283.8032800406
 10
421.8496948459
 20
-285.4996954967
 10
424.612252871
 20
-286.8927594384
 10
427.5381212775
 20
-287.9765065519
 10
430.6147710479
 20
-288.7462960656
 10
433.8290274954
 20
-289.1988316228
 10
437.1671266805
 20
-289.3321753967
 10
440.6147743499
 20
-289.1457563887
 10
444.1572071472
 20
-288.6403728738
 10
447.7792558311
 20
-287.8181889816
 10
451.4654102332
 20
-286.6827254298
 10
455.1998856745
 20
-285.2388444477
 10
458.9666905576
 20
-283.4927289554
 10
462.7496948459
 20
-281.4518560873
 10
466.5326991342
 20
-279.1249651746
 10
470.2995040174
 20
-276.5220203212
 10
474.0339794586
 20
-273.6541677367
 10
477.7201338607
 20
-270.533688006
 10
481.3421825446
 20
-267.1739435026
 10
484.8846153419
 20
-263.5893211681
 10
488.3322630114
 20
-259.7951709057
 10
491.6703621964
 20
-255.8077398493
 10
494.884618644
 20
-251.6441027908
 10
497.9612684143
 20
-247.3220890634
 10
500.8871368209
 20
-242.8602061934
 10
503.6496948459
 20
-238.2775606481
 10
506.2371127919
 20
-233.5937760195
 10
508.6383109379
 20
-228.8289089922
 10
510.8430069849
 20
-224.0033634586
 10
512.8417600858
 20
-219.1378031452
 10
514.6260112732
 20
-214.2530631285
 10
516.1881201094
 20
-209.370060615
 10
517.5213974046
 20
-204.5097053712
 10
518.6201338607
 20
-199.6928101844
 10
519.4796245196
 20
-194.9400017393
 10
520.0961889103
 20
-190.2716322913
 10
520.4671868094
 20
-185.7076925151
 10
520.591029547
 20
-181.2677259015
  0
LWPOLYLINE
  5
C9
330
1F
100
AcDbEntity
  8
0
  6
Continuous
 62
     7
370
    25
100
AcDbPolyline
 90
       76
 70
   128
 43
0.0
 10
828.0410580069
 20
-241.8452077988
 10
827.9143339412
 20
-238.2805738347
 10
827.5350506225
 20
-234.5946307249
 10
826.9058684506
 20
-230.8132327118
 10
826.0312006865
 20
-226.9629035856
 10
824.9171824961
 20
-223.0706506387
 10
823.5716279166
 20
-219.1637752288
 10
822.0039750465
 20
-215.26968128
 10
820.2252198444
 20
-211.4156830634
 10
818.247839
 20
-207.6288136073
 10
816.0857024192
 20
-203.9356350802
 10
813.7539759366
 20
-200.3620524758
 10
811.2690149381
 20
-196.9331319085
 10
808.6482496397
 20
-193.6729247924
 10
805.9100628269
 20
-190.604299138
 10
803.0736609129
 20
-187.7487791495
 10
800.1589392191
 20
-185.1263942478
 10
797.186342424
 20
-182.7555385789
 10
794.1767211583
 20
-180.6528419918
 10
791.1511857527
 20
-178.8330533923
 10
788.1309581644
 20
-177.30893729
 10
785.1372231197
 20
-176.0911842642
 10
782.190979519
 20
-175.1883359773
 10
779.3128931444
 20
-174.6067252616
 10
776.5231517037
 20
-174.3504316981
 10
773.8413232289
 20
-174.4212530022
 10
771.2862188198
 20
-174.8186924133
 10
768.8757606979
 20
-175.5399621795
 10
766.6268564951
 20
-176.5800031115
 10
764.5552806586
 20
-177.9315200696
 10
762.6755638043
 20
-179.5850331333
 10
761.0008907954
 20
-181.5289440965
 10
759.5430082599
 20
-183.7496178206
 10
758.3121421963
 20
-186.2314778748
 10
757.3169262456
 20
-188.9571157942
 10
756.5643411326
 20
-191.9074131871
 10
756.0596657012
 20
-195.061675837
 10
755.806439887
 20
-198.3977788579
 10
755.806439887
 20
-201.892321884
 10
756.0596657012
 20
-205.5207932068
 10
756.5643411326
 20
-209.257741707
 10
757.3169262456
 20
-213.0769553759
 10
758.3121421963
 20
-216.9516451737
 10
759.5430082599
 20
-220.8546329355
 10
761.0008907954
 20
-224.7585420064
 10
762.6755638043
 20
-228.6359892691
 10
764.5552806586
 20
-232.4597772172
 10
766.6268564951
 20
-236.2030847255
 10
768.8757606979
 20
-239.8396551814
 10
771.2862188198
 20
-243.3439806561
 10
773.8413232289
 20
-246.6914808241
 10
776.5231517037
 20
-249.8586753771
 10
779.3128931444
 20
-252.8233487208
 10
782.190979519
 20
-255.5647058018
 10
785.1372231197
 20
-258.0635179699
 10
788.1309581644
 20
-260.3022578532
 10
791.1511857527
 20
-262.2652222998
 10
794.1767211583
 20
-263.9386425245
 10
797.186342424
 20
-265.3107806869
 10
800.1589392191
 20
-266.3720122236
 10
803.0736609129
 20
-267.1148933579
 10
805.9100628269
 20
-267.5342133123
 10
808.6482496397
 20
-267.6270308587
 10
811.2690149381
 20
-267.3926949487
 10
813.7539759366
 20
-266.8328492803
 10
816.0857024192
 20
-265.9514207687
 10
818.247839
 20
-264.7545920014
 10
820.2252198444
 20
-263.2507578725
 10
822.0039750465
 20
-261.4504666978
 10
823.5716279166
 20
-259.3663462264
 10
824.9171824961
 20
-257.013015066
 10
826.0312006865
 20
-254.4069801438
 10
826.9058684506
 20
-251.5665209223
 10
827.5350506225
 20
-248.5115611822
 10
827.9143339412
 20
-245.263529271
 10
828.0410580069
 20
-241.8452077988
  0
LWPOLYLINE
  5
CA
330
1F
100
AcDbEntity
  8
0
  6
Continuous
 62
     7
370
    25
100
AcDbPolyline
 90
       84
 70
   128
 43
0.0
 10
836.1020753124
 20
-246.4987340362
 10
835.9755051997
 20
-242.5660443175
 10
835.5965198436
 20
-238.5097459477
 10
834.967290038
 20
-234.3530730367
 10
834.0914199542
 20
-230.1198346304
 10
832.9739264968
 20
-225.834278335
 10
831.621210567
 20
-221.5209514289
 10
830.0410203993
 20
-217.204560258
 10
828.2424071797
 20
-212.90982872
 10
826.2356732019
 20
-208.6613566483
 10
824.0323128565
 20
-204.4834789062
 10
821.6449467919
 20
-200.400125999
 10
819.0872496248
 20
-196.4346870023
 10
816.3738716129
 20
-192.6098755917
 10
813.5203547397
 20
-188.9475999406
 10
810.5430436915
 20
-185.4688372321
 10
807.4589922364
 20
-182.1935135041
 10
804.2858655418
 20
-179.1403895143
 10
801.04183899
 20
-176.3269532804
 10
797.7454940713
 20
-173.7693199104
 10
794.415711951
 20
-171.4821392965
 10
791.0715653195
 20
-169.4785122022
 10
787.7322091458
 20
-167.7699152222
 10
784.4167709597
 20
-166.366135045
 10
781.1442412909
 20
-165.2752123966
 10
777.9333648929
 20
-164.5033959829
 10
774.802533375
 20
-164.0551066986
 10
771.7696798566
 20
-163.932912304
 10
768.8521762481
 20
-164.1375127176
 10
766.0667337458
 20
-164.6677360067
 10
763.4293071121
 20
-165.5205451004
 10
760.9550032881
 20
-166.6910551854
 10
758.6579948618
 20
-168.1725616859
 10
756.5514388897
 20
-169.9565786669
 10
754.6474015334
 20
-172.0328874407
 10
752.9567889466
 20
-174.3895950985
 10
751.4892848051
 20
-177.0132026325
 10
750.2532948396
 20
-179.8886822561
 10
749.2558986888
 20
-182.9995634826
 10
748.5028093475
 20
-186.328027466
 10
747.9983404432
 20
-189.855009066
 10
747.7453815282
 20
-193.5603060514
 10
747.7453815282
 20
-197.4226948167
 10
747.9983404432
 20
-201.4200519487
 10
748.5028093475
 20
-205.5294809478
 10
749.2558986888
 20
-209.7274433769
 10
750.2532948396
 20
-213.9898936872
 10
751.4892848051
 20
-218.2924169496
 10
752.9567889466
 20
-222.6103687002
 10
754.6474015334
 20
-226.9190161026
 10
756.5514388897
 20
-231.1936796145
 10
758.6579948618
 20
-235.4098743506
 10
760.9550032881
 20
-239.5434503292
 10
763.4293071121
 20
-243.5707308014
 10
766.0667337458
 20
-247.4686478693
 10
768.8521762481
 20
-251.2148746171
 10
771.7696798566
 20
-254.787952997
 10
774.802533375
 20
-258.1674167399
 10
777.9333648929
 20
-261.3339085833
 10
781.1442412909
 20
-264.2692911488
 10
784.4167709597
 20
-266.9567508309
 10
787.7322091458
 20
-269.3808941038
 10
791.0715653195
 20
-271.5278356944
 10
794.415711951
 20
-273.3852781157
 10
797.7454940713
 20
-274.9425821058
 10
801.04183899
 20
-276.1908275684
 10
804.2858655418
 20
-277.1228646666
 10
807.4589922364
 20
-277.7333547762
 10
810.5430436915
 20
-278.0188010651
 10
813.5203547397
 20
-277.977568523
 10
816.3738716129
 20
-277.6098933261
 10
819.0872496248
 20
-276.9178814845
 10
821.6449467919
 20
-275.9054967795
 10
824.0323128565
 20
-274.5785380589
 10
826.2356732019
 20
-272.9446060222
 10
828.2424071797
 20
-271.0130596841
 10
830.0410203993
 20
-268.7949627671
 10
831.621210567
 20
-266.3030203294
 10
832.9739264968
 20
-263.5515059917
 10
834.0914199542
 20
-260.556180179
 10
834.967290038
 20
-257.3341998461
 10
835.5965198436
 20
-253.9040202048
 10
835.9755051997
 20
-250.2852890133
 10
836.1020753124
 20
-246.4987340362
  0
ENDSEC
  0
SECTION
  2
OBJECTS
  0
DICTIONARY
  5
C
330
0
100
AcDbDictionary
281
     1
  3
ACAD_GROUP
350
D
  3
ACAD_LAYOUT
350
1A
  3
ACAD_MLINESTYLE
350
17
  3
ACAD_PLOTSETTINGS
350
19
  3
ACAD_PLOTSTYLENAME
350
E
  3
ACAD_SCALELIST
350
47
  0
DICTIONARY
  5
D
102
{ACAD_REACTORS
330
C
102
}
330
C
100
AcDbDictionary
281
     1
  0
DICTIONARY
  5
1A
102
{ACAD_REACTORS
330
C
102
}
330
C
100
AcDbDictionary
281
     1
  3
Layout1
350
1E
  3
Layout2
350
26
  3
Model
350
22
  0
DICTIONARY
  5
17
102
{ACAD_REACTORS
330
C
102
}
330
C
100
AcDbDictionary
281
     1
  3
Standard
350
18
  0
DICTIONARY
  5
19
102
{ACAD_REACTORS
330
C
102
}
330
C
100
AcDbDictionary
281
     1
  0
ACDBDICTIONARYWDFLT
  5
E
102
{ACAD_REACTORS
330
C
102
}
330
C
100
AcDbDictionary
281
     1
  3
Normal
350
F
100
AcDbDictionaryWithDefault
340
F
  0
DICTIONARY
  5
47
102
{ACAD_REACTORS
330
C
102
}
330
C
100
AcDbDictionary
281
     1
  3
A0
350
48
  3
A1
350
49
  3
A2
350
4A
  3
A3
350
4B
  3
A4
350
4C
  3
A5
350
4D
  3
A6
350
4E
  3
A7
350
4F
  3
A8
350
50
  3
A9
350
51
  3
B0
350
52
  3
B1
350
53
  3
B2
350
54
  3
B3
350
55
  3
B4
350
56
  3
B5
350
57
  3
B6
350
58
  3
B7
350
59
  3
B8
350
5A
  3
B9
350
5B
  3
C0
350
5C
  3
C1
350
5D
  3
C2
350
5E
  3
C3
350
5F
  3
C4
350
60
  3
C5
350
61
  3
C6
350
62
  3
C7
350
63
  3
C8
350
64
  3
C9
350
65
  3
D0
350
66
  3
D1
350
67
  3
D2
350
68
  0
LAYOUT
  5
1E
102
{ACAD_REACTORS
330
1A
102
}
330
1A
100
AcDbPlotSettings
  1

  2
none_device
  4

  6

 40
0.0
 41
0.0
 42
0.0
 43
0.0
 44
0.0
 45
0.0
 46
0.0
 47
0.0
 48
0.0
 49
0.0
140
0.0
141
0.0
142
1.0
143
1.0
 70
   688
 72
     1
 73
     0
 74
     5
  7

 75
    16
147
1.0
148
0.0
149
0.0
100
AcDbLayout
  1
Layout1
 70
     1
 71
     1
 10
0.0
 20
0.0
 11
420.0
 21
297.0
 12
0.0
 22
0.0
 32
0.0
 14
1.0000000000E+20
 24
1.0000000000E+20
 34
1.0000000000E+20
 15
-1.0000000000E+20
 25
-1.0000000000E+20
 35
-1.0000000000E+20
146
0.0
 13
0.0
 23
0.0
 33
0.0
 16
1.0
 26
0.0
 36
0.0
 17
0.0
 27
1.0
 37
0.0
 76
     0
330
1B
  0
LAYOUT
  5
26
102
{ACAD_REACTORS
330
1A
102
}
330
1A
100
AcDbPlotSettings
  1

  2
none_device
  4

  6

 40
0.0
 41
0.0
 42
0.0
 43
0.0
 44
0.0
 45
0.0
 46
0.0
 47
0.0
 48
0.0
 49
0.0
140
0.0
141
0.0
142
1.0
143
1.0
 70
   688
 72
     1
 73
     0
 74
     5
  7

 75
    16
147
1.0
148
0.0
149
0.0
100
AcDbLayout
  1
Layout2
 70
     1
 71
     2
 10
0.0
 20
0.0
 11
0.0
 21
0.0
 12
0.0
 22
0.0
 32
0.0
 14
0.0
 24
0.0
 34
0.0
 15
0.0
 25
0.0
 35
0.0
146
0.0
 13
0.0
 23
0.0
 33
0.0
 16
1.0
 26
0.0
 36
0.0
 17
0.0
 27
1.0
 37
0.0
 76
     0
330
23
  0
LAYOUT
  5
22
102
{ACAD_REACTORS
330
1A
102
}
330
1A
100
AcDbPlotSettings
  1

  2
none_device
  4
Letter_(8.50_x_11.00_Inches)
  6

 40
6.35
 41
6.35
 42
6.35000508
 43
6.35000508
 44
215.9
 45
279.4
 46
0.0
 47
0.0
 48
0.0
 49
0.0
140
0.0
141
0.0
142
1.0
143
1.0
 70
  1712
 72
     1
 73
     0
 74
     0
  7

 75
     0
147
1.0
148
0.0
149
0.0
100
AcDbLayout
  1
Model
 70
     1
 71
     0
 10
0.0
 20
0.0
 11
279.4
 21
215.9
 12
0.0
 22
0.0
 32
0.0
 14
0.0
 24
0.0
 34
0.0
 15
279.4
 25
215.9
 35
0.0
146
0.0
 13
0.0
 23
0.0
 33
0.0
 16
1.0
 26
0.0
 36
0.0
 17
0.0
 27
1.0
 37
0.0
 76
     0
330
1F
331
29
  0
MLINESTYLE
  5
18
102
{ACAD_REACTORS
330
17
102
}
330
17
100
AcDbMlineStyle
  2
Standard
 70
     0
  3

 62
   256
 51
90.0
 52
90.0
 71
     2
 49
0.5
 62
   256
  6
BYLAYER
 49
-0.5
 62
   256
  6
BYLAYER
  0
ACDBPLACEHOLDER
  5
F
102
{ACAD_REACTORS
330
E
102
}
330
E
  0
SCALE
  5
48
102
{ACAD_REACTORS
330
47
102
}
330
47
100
AcDbScale
 70
     0
300
1:1
140
1.0
141
1.0
290
     1
  0
SCALE
  5
49
102
{ACAD_REACTORS
330
47
102
}
330
47
100
AcDbScale
 70
     0
300
1:2
140
1.0
141
2.0
290
     0
  0
SCALE
  5
4A
102
{ACAD_REACTORS
330
47
102
}
330
47
100
AcDbScale
 70
     0
300
1:4
140
1.0
141
4.0
290
     0
  0
SCALE
  5
4B
102
{ACAD_REACTORS
330
47
102
}
330
47
100
AcDbScale
 70
     0
300
1:5
140
1.0
141
5.0
290
     0
  0
SCALE
  5
4C
102
{ACAD_REACTORS
330
47
102
}
330
47
100
AcDbScale
 70
     0
300
1:8
140
1.0
141
8.0
290
     0
  0
SCALE
  5
4D
102
{ACAD_REACTORS
330
47
102
}
330
47
100
AcDbScale
 70
     0
300
1:10
140
1.0
141
10.0
290
     0
  0
SCALE
  5
4E
102
{ACAD_REACTORS
330
47
102
}
330
47
100
AcDbScale
 70
     0
300
1:16
140
1.0
141
16.0
290
     0
  0
SCALE
  5
4F
102
{ACAD_REACTORS
330
47
102
}
330
47
100
AcDbScale
 70
     0
300
1:20
140
1.0
141
20.0
290
     0
  0
SCALE
  5
50
102
{ACAD_REACTORS
330
47
102
}
330
47
100
AcDbScale
 70
     0
300
1:30
140
1.0
141
30.0
290
     0
  0
SCALE
  5
51
102
{ACAD_REACTORS
330
47
102
}
330
47
100
AcDbScale
 70
     0
300
1:40
140
1.0
141
40.0
290
     0
  0
SCALE
  5
52
102
{ACAD_REACTORS
330
47
102
}
330
47
100
AcDbScale
 70
     0
300
1:50
140
1.0
141
50.0
290
     0
  0
SCALE
  5
53
102
{ACAD_REACTORS
330
47
102
}
330
47
100
AcDbScale
 70
     0
300
1:100
140
1.0
141
100.0
290
     0
  0
SCALE
  5
54
102
{ACAD_REACTORS
330
47
102
}
330
47
100
AcDbScale
 70
     0
300
2:1
140
2.0
141
1.0
290
     0
  0
SCALE
  5
55
102
{ACAD_REACTORS
330
47
102
}
330
47
100
AcDbScale
 70
     0
300
4:1
140
4.0
141
1.0
290
     0
  0
SCALE
  5
56
102
{ACAD_REACTORS
330
47
102
}
330
47
100
AcDbScale
 70
     0
300
8:1
140
8.0
141
1.0
290
     0
  0
SCALE
  5
57
102
{ACAD_REACTORS
330
47
102
}
330
47
100
AcDbScale
 70
     0
300
10:1
140
10.0
141
1.0
290
     0
  0
SCALE
  5
58
102
{ACAD_REACTORS
330
47
102
}
330
47
100
AcDbScale
 70
     0
300
100:1
140
100.0
141
1.0
290
     0
  0
SCALE
  5
59
102
{ACAD_REACTORS
330
47
102
}
330
47
100
AcDbScale
 70
     0
300
1/128" = 1'-0"
140
0.0078125
141
12.0
290
     0
  0
SCALE
  5
5A
102
{ACAD_REACTORS
330
47
102
}
330
47
100
AcDbScale
 70
     0
300
1/64" = 1'-0"
140
0.015625
141
12.0
290
     0
  0
SCALE
  5
5B
102
{ACAD_REACTORS
330
47
102
}
330
47
100
AcDbScale
 70
     0
300
1/32" = 1'-0"
140
0.03125
141
12.0
290
     0
  0
SCALE
  5
5C
102
{ACAD_REACTORS
330
47
102
}
330
47
100
AcDbScale
 70
     0
300
1/16" = 1'-0"
140
0.0625
141
12.0
290
     0
  0
SCALE
  5
5D
102
{ACAD_REACTORS
330
47
102
}
330
47
100
AcDbScale
 70
     0
300
3/32" = 1'-0"
140
0.09375
141
12.0
290
     0
  0
SCALE
  5
5E
102
{ACAD_REACTORS
330
47
102
}
330
47
100
AcDbScale
 70
     0
300
1/8" = 1'-0"
140
0.125
141
12.0
290
     0
  0
SCALE
  5
5F
102
{ACAD_REACTORS
330
47
102
}
330
47
100
AcDbScale
 70
     0
300
3/16" = 1'-0"
140
0.1875
141
12.0
290
     0
  0
SCALE
  5
60
102
{ACAD_REACTORS
330
47
102
}
330
47
100
AcDbScale
 70
     0
300
1/4" = 1'-0"
140
0.25
141
12.0
290
     0
  0
SCALE
  5
61
102
{ACAD_REACTORS
330
47
102
}
330
47
100
AcDbScale
 70
     0
300
3/8" = 1'-0"
140
0.375
141
12.0
290
     0
  0
SCALE
  5
62
102
{ACAD_REACTORS
330
47
102
}
330
47
100
AcDbScale
 70
     0
300
1/2" = 1'-0"
140
0.5
141
12.0
290
     0
  0
SCALE
  5
63
102
{ACAD_REACTORS
330
47
102
}
330
47
100
AcDbScale
 70
     0
300
3/4" = 1'-0"
140
0.75
141
12.0
290
     0
  0
SCALE
  5
64
102
{ACAD_REACTORS
330
47
102
}
330
47
100
AcDbScale
 70
     0
300
1" = 1'-0"
140
1.0
141
12.0
290
     0
  0
SCALE
  5
65
102
{ACAD_REACTORS
330
47
102
}
330
47
100
AcDbScale
 70
     0
300
1-1/2" = 1'-0"
140
1.5
141
12.0
290
     0
  0
SCALE
  5
66
102
{ACAD_REACTORS
330
47
102
}
330
47
100
AcDbScale
 70
     0
300
3" = 1'-0"
140
3.0
141
12.0
290
     0
  0
SCALE
  5
67
102
{ACAD_REACTORS
330
47
102
}
330
47
100
AcDbScale
 70
     0
300
6" = 1'-0"
140
6.0
141
12.0
290
     0
  0
SCALE
  5
68
102
{ACAD_REACTORS
330
47
102
}
330
47
100
AcDbScale
 70
     0
300
1'-0" = 1'-0"
140
12.0
141
12.0
290
     0
  0
ENDSEC
  0
EOF
